ISO-10303-21;
HEADER;
FILE_DESCRIPTION(('STEP AP203'),'1');
FILE_NAME('620-008x11x15.stp','2018-05-21T08:41:56',(' '),(' '),'Spatial InterOp 3D',' ',' ');
FILE_SCHEMA(('CONFIG_CONTROL_DESIGN'));
ENDSEC;
DATA;
#1=DESIGN_CONTEXT('',#51,'design');
#2=APPLICATION_PROTOCOL_DEFINITION('INTERNATIONAL STANDARD','config_control_design',1994,#51);
#3=PRODUCT_CATEGORY_RELATIONSHIP('NONE','NONE',#52,#53);
#4=DATE_AND_TIME(#54,#55);
#5=DATE_TIME_ROLE('creation_date');
#6=DATE_TIME_ROLE('classification_date');
#7=PERSON_AND_ORGANIZATION_ROLE('creator');
#8=PERSON_AND_ORGANIZATION_ROLE('design_supplier');
#9=PERSON_AND_ORGANIZATION_ROLE('classification_officer');
#10=PERSON_AND_ORGANIZATION_ROLE('design_owner');
#11=APPROVAL_PERSON_ORGANIZATION(#56,#57,#58);
#12=APPROVAL_DATE_TIME(#4,#57);
#13=CC_DESIGN_APPROVAL(#57,(#59,#60,#61));
#14=CC_DESIGN_DATE_AND_TIME_ASSIGNMENT(#4,#5,(#61));
#15=CC_DESIGN_DATE_AND_TIME_ASSIGNMENT(#4,#6,(#59));
#16=CC_DESIGN_PERSON_AND_ORGANIZATION_ASSIGNMENT(#56,#10,(#62));
#17=CC_DESIGN_PERSON_AND_ORGANIZATION_ASSIGNMENT(#56,#7,(#61));
#18=CC_DESIGN_PERSON_AND_ORGANIZATION_ASSIGNMENT(#56,#7,(#60));
#19=CC_DESIGN_PERSON_AND_ORGANIZATION_ASSIGNMENT(#56,#8,(#60));
#20=CC_DESIGN_SECURITY_CLASSIFICATION(#59,(#60));
#21=CC_DESIGN_PERSON_AND_ORGANIZATION_ASSIGNMENT(#56,#9,(#59));
#22=SHAPE_DEFINITION_REPRESENTATION(#63,#64);
#23=DESIGN_CONTEXT('',#65,'design');
#24=APPLICATION_PROTOCOL_DEFINITION('INTERNATIONAL STANDARD','config_control_design',1994,#65);
#25=PRODUCT_CATEGORY_RELATIONSHIP('NONE','NONE',#66,#67);
#26=DATE_AND_TIME(#68,#69);
#27=DATE_TIME_ROLE('creation_date');
#28=DATE_TIME_ROLE('classification_date');
#29=PERSON_AND_ORGANIZATION_ROLE('creator');
#30=PERSON_AND_ORGANIZATION_ROLE('design_supplier');
#31=PERSON_AND_ORGANIZATION_ROLE('classification_officer');
#32=PERSON_AND_ORGANIZATION_ROLE('design_owner');
#33=APPROVAL_PERSON_ORGANIZATION(#70,#71,#72);
#34=APPROVAL_DATE_TIME(#26,#71);
#35=CC_DESIGN_APPROVAL(#71,(#73,#74,#75));
#36=CC_DESIGN_DATE_AND_TIME_ASSIGNMENT(#26,#27,(#75));
#37=CC_DESIGN_DATE_AND_TIME_ASSIGNMENT(#26,#28,(#73));
#38=CC_DESIGN_PERSON_AND_ORGANIZATION_ASSIGNMENT(#70,#32,(#76));
#39=CC_DESIGN_PERSON_AND_ORGANIZATION_ASSIGNMENT(#70,#29,(#75));
#40=CC_DESIGN_PERSON_AND_ORGANIZATION_ASSIGNMENT(#70,#29,(#74));
#41=CC_DESIGN_PERSON_AND_ORGANIZATION_ASSIGNMENT(#70,#30,(#74));
#42=CC_DESIGN_SECURITY_CLASSIFICATION(#73,(#74));
#43=CC_DESIGN_PERSON_AND_ORGANIZATION_ASSIGNMENT(#70,#31,(#73));
#44=CONTEXT_DEPENDENT_SHAPE_REPRESENTATION(#77,#78);
#45=SHAPE_DEFINITION_REPRESENTATION(#79,#80);
#46=SHAPE_REPRESENTATION_RELATIONSHIP('NONE','NONE',#80,#81);
#47= (GEOMETRIC_REPRESENTATION_CONTEXT(3)GLOBAL_UNCERTAINTY_ASSIGNED_CONTEXT((#84))GLOBAL_UNIT_ASSIGNED_CONTEXT((#86,#87,#88))REPRESENTATION_CONTEXT('NONE','WORKSPACE'));
#51=APPLICATION_CONTEXT('CONFIGURATION CONTROLLED 3D DESIGNS OF MECHANICAL PARTS AND ASSEMBLIES');
#52=PRODUCT_CATEGORY('part','NONE');
#53=PRODUCT_RELATED_PRODUCT_CATEGORY('detail',' ',(#62));
#54=CALENDAR_DATE(2018,21,4);
#55=LOCAL_TIME(10,41,56.0,#90);
#56=PERSON_AND_ORGANIZATION(#91,#92);
#57=APPROVAL(#93,'SOLID MODEL');
#58=APPROVAL_ROLE('APPROVED');
#59=SECURITY_CLASSIFICATION('','',#94);
#60=PRODUCT_DEFINITION_FORMATION_WITH_SPECIFIED_SOURCE(' ','NONE',#62,.NOT_KNOWN.);
#61=PRODUCT_DEFINITION('NONE','NONE',#60,#1);
#62=PRODUCT('','','PART--DESC',(#95));
#63=PRODUCT_DEFINITION_SHAPE('NONE','NONE',#61);
#64=SHAPE_REPRESENTATION('',(#96,#97),#98);
#65=APPLICATION_CONTEXT('CONFIGURATION CONTROLLED 3D DESIGNS OF MECHANICAL PARTS AND ASSEMBLIES');
#66=PRODUCT_CATEGORY('part','NONE');
#67=PRODUCT_RELATED_PRODUCT_CATEGORY('detail',' ',(#76));
#68=CALENDAR_DATE(2018,21,4);
#69=LOCAL_TIME(10,41,56.0,#99);
#70=PERSON_AND_ORGANIZATION(#100,#101);
#71=APPROVAL(#102,'SOLID MODEL');
#72=APPROVAL_ROLE('APPROVED');
#73=SECURITY_CLASSIFICATION('','',#103);
#74=PRODUCT_DEFINITION_FORMATION_WITH_SPECIFIED_SOURCE(' ','NONE',#76,.NOT_KNOWN.);
#75=PRODUCT_DEFINITION('620-008x11x15','620-008x11x15',#74,#23);
#76=PRODUCT('620-008x11x15','620-008x11x15','PART-620-008x11x15-DESC',(#104));
#77=(REPRESENTATION_RELATIONSHIP('','',#80,#64)REPRESENTATION_RELATIONSHIP_WITH_TRANSFORMATION(#107)SHAPE_REPRESENTATION_RELATIONSHIP());
#78=PRODUCT_DEFINITION_SHAPE('NAUO-PROD-DEF','NAUO-PROD-DEF',#109);
#79=PRODUCT_DEFINITION_SHAPE('NONE','NONE',#75);
#80=SHAPE_REPRESENTATION('620-008x11x15',(#96),#98);
#81=ADVANCED_BREP_SHAPE_REPRESENTATION('',(#110),#47);
#84=UNCERTAINTY_MEASURE_WITH_UNIT(LENGTH_MEASURE(1.0E-006),#86,'','');
#86= (CONVERSION_BASED_UNIT('METRE',#113)LENGTH_UNIT()NAMED_UNIT(#116));
#87= (NAMED_UNIT(#118)PLANE_ANGLE_UNIT()SI_UNIT($,.RADIAN.));
#88= (NAMED_UNIT(#118)SOLID_ANGLE_UNIT()SI_UNIT($,.STERADIAN.));
#90=COORDINATED_UNIVERSAL_TIME_OFFSET(1,0,.AHEAD.);
#91=PERSON('','UNSPECIFIED',$,$,$,$);
#92=ORGANIZATION('UNSPECIFIED','UNSPECIFIED','UNSPECIFIED');
#93=APPROVAL_STATUS('approved');
#94=SECURITY_CLASSIFICATION_LEVEL('unclassified');
#95=MECHANICAL_CONTEXT('',#51,'mechanical');
#96=AXIS2_PLACEMENT_3D('',#124,#125,#126);
#97=AXIS2_PLACEMENT_3D('',#127,#128,#129);
#98= (GEOMETRIC_REPRESENTATION_CONTEXT(3)GLOBAL_UNCERTAINTY_ASSIGNED_CONTEXT((#132))GLOBAL_UNIT_ASSIGNED_CONTEXT((#134,#135,#136))REPRESENTATION_CONTEXT('NONE','WORKSPACE'));
#99=COORDINATED_UNIVERSAL_TIME_OFFSET(1,0,.AHEAD.);
#100=PERSON('','UNSPECIFIED',$,$,$,$);
#101=ORGANIZATION('UNSPECIFIED','UNSPECIFIED','UNSPECIFIED');
#102=APPROVAL_STATUS('approved');
#103=SECURITY_CLASSIFICATION_LEVEL('unclassified');
#104=MECHANICAL_CONTEXT('',#65,'mechanical');
#107=ITEM_DEFINED_TRANSFORMATION('','',#96,#97);
#109=NEXT_ASSEMBLY_USAGE_OCCURRENCE('620-008x11x15','620-008x11x15','620-008x11x15',#61,#75,$);
#110=MANIFOLD_SOLID_BREP('',#138);
#113=LENGTH_MEASURE_WITH_UNIT(LENGTH_MEASURE(1.0),#139);
#116=DIMENSIONAL_EXPONENTS(1.0,0.0,0.0,0.0,0.0,0.0,0.0);
#118=DIMENSIONAL_EXPONENTS(0.0,0.0,0.0,0.0,0.0,0.0,0.0);
#124=CARTESIAN_POINT('',(0.0,0.0,0.0));
#125=DIRECTION('',(0.0,0.0,1.0));
#126=DIRECTION('',(1.0,0.0,0.0));
#127=CARTESIAN_POINT('',(0.0,0.0,0.0));
#128=DIRECTION('',(0.0,0.0,1.0));
#129=DIRECTION('',(1.0,0.0,0.0));
#132=UNCERTAINTY_MEASURE_WITH_UNIT(LENGTH_MEASURE(1.0E-006),#134,'','');
#134= (CONVERSION_BASED_UNIT('METRE',#142)LENGTH_UNIT()NAMED_UNIT(#145));
#135= (NAMED_UNIT(#147)PLANE_ANGLE_UNIT()SI_UNIT($,.RADIAN.));
#136= (NAMED_UNIT(#147)SOLID_ANGLE_UNIT()SI_UNIT($,.STERADIAN.));
#138=CLOSED_SHELL('',(#153,#154,#155,#156,#157,#158));
#139= (NAMED_UNIT(#116)LENGTH_UNIT()SI_UNIT($,.METRE.));
#142=LENGTH_MEASURE_WITH_UNIT(LENGTH_MEASURE(1.0),#160);
#145=DIMENSIONAL_EXPONENTS(1.0,0.0,0.0,0.0,0.0,0.0,0.0);
#147=DIMENSIONAL_EXPONENTS(0.0,0.0,0.0,0.0,0.0,0.0,0.0);
#153=ADVANCED_FACE('',(#161,#162),#163,.T.);
#154=ADVANCED_FACE('',(#164,#165),#166,.T.);
#155=ADVANCED_FACE('',(#167,#168),#169,.F.);
#156=ADVANCED_FACE('',(#170,#171),#172,.T.);
#157=ADVANCED_FACE('',(#173,#174),#175,.T.);
#158=ADVANCED_FACE('',(#176,#177),#178,.T.);
#160= (NAMED_UNIT(#145)LENGTH_UNIT()SI_UNIT($,.METRE.));
#161=FACE_OUTER_BOUND('',#180,.T.);
#162=FACE_OUTER_BOUND('',#181,.T.);
#163=TOROIDAL_SURFACE('',#182,0.005,0.001);
#164=FACE_OUTER_BOUND('',#183,.T.);
#165=FACE_OUTER_BOUND('',#184,.T.);
#166=TOROIDAL_SURFACE('',#185,0.005,0.001);
#167=FACE_OUTER_BOUND('',#186,.T.);
#168=FACE_OUTER_BOUND('',#187,.T.);
#169=CYLINDRICAL_SURFACE('',#188,0.004);
#170=FACE_OUTER_BOUND('',#189,.T.);
#171=FACE_BOUND('',#190,.T.);
#172=CONICAL_SURFACE('',#191,0.005,0.785398163397449);
#173=FACE_OUTER_BOUND('',#192,.T.);
#174=FACE_OUTER_BOUND('',#193,.T.);
#175=CYLINDRICAL_SURFACE('',#194,0.0055);
#176=FACE_BOUND('',#195,.T.);
#177=FACE_OUTER_BOUND('',#196,.T.);
#178=CONICAL_SURFACE('',#197,0.0055,0.261799387799149);
#180=EDGE_LOOP('',(#198));
#181=EDGE_LOOP('',(#199));
#182=AXIS2_PLACEMENT_3D('',#200,#201,#202);
#183=EDGE_LOOP('',(#203));
#184=EDGE_LOOP('',(#204));
#185=AXIS2_PLACEMENT_3D('',#205,#206,#207);
#186=EDGE_LOOP('',(#208));
#187=EDGE_LOOP('',(#209));
#188=AXIS2_PLACEMENT_3D('',#210,#211,#212);
#189=EDGE_LOOP('',(#213));
#190=EDGE_LOOP('',(#214));
#191=AXIS2_PLACEMENT_3D('',#215,#216,#217);
#192=EDGE_LOOP('',(#218));
#193=EDGE_LOOP('',(#219));
#194=AXIS2_PLACEMENT_3D('',#220,#221,#222);
#195=EDGE_LOOP('',(#223));
#196=EDGE_LOOP('',(#224));
#197=AXIS2_PLACEMENT_3D('',#225,#226,#227);
#198=ORIENTED_EDGE('',*,*,#228,.F.);
#199=ORIENTED_EDGE('',*,*,#229,.F.);
#200=CARTESIAN_POINT('',(0.0,1.2535970473439E-019,0.0140472793432632));
#201=DIRECTION('',(0.0,6.12323399573677E-017,1.0));
#202=DIRECTION('',(0.0,-1.0,6.12323399573677E-017));
#203=ORIENTED_EDGE('',*,*,#230,.T.);
#204=ORIENTED_EDGE('',*,*,#231,.F.);
#205=CARTESIAN_POINT('',(0.0,6.12323399573677E-020,0.001));
#206=DIRECTION('',(0.0,-6.12323399573677E-017,-1.0));
#207=DIRECTION('',(0.0,1.0,-6.12323399573677E-017));
#208=ORIENTED_EDGE('',*,*,#231,.T.);
#209=ORIENTED_EDGE('',*,*,#228,.T.);
#210=CARTESIAN_POINT('',(0.0,0.0,0.0));
#211=DIRECTION('',(0.0,-6.12323399573677E-017,-1.0));
#212=DIRECTION('',(0.0,1.0,-6.12323399573677E-017));
#213=ORIENTED_EDGE('',*,*,#232,.T.);
#214=ORIENTED_EDGE('',*,*,#230,.F.);
#215=CARTESIAN_POINT('',(0.0,0.0,0.0));
#216=DIRECTION('',(-0.0,6.12323399573677E-017,1.0));
#217=DIRECTION('',(0.0,-1.0,6.12323399573677E-017));
#218=ORIENTED_EDGE('',*,*,#233,.T.);
#219=ORIENTED_EDGE('',*,*,#232,.F.);
#220=CARTESIAN_POINT('',(0.0,0.0,0.0));
#221=DIRECTION('',(0.0,-6.12323399573677E-017,-1.0));
#222=DIRECTION('',(0.0,1.0,-6.12323399573677E-017));
#223=ORIENTED_EDGE('',*,*,#229,.T.);
#224=ORIENTED_EDGE('',*,*,#233,.F.);
#225=CARTESIAN_POINT('',(0.0,0.0,0.012));
#226=DIRECTION('',(0.0,-6.12323399573677E-017,-1.0));
#227=DIRECTION('',(0.0,1.0,-6.12323399573677E-017));
#228=EDGE_CURVE('',#234,#234,#235,.T.);
#229=EDGE_CURVE('',#236,#236,#237,.T.);
#230=EDGE_CURVE('',#238,#238,#239,.T.);
#231=EDGE_CURVE('',#240,#240,#241,.T.);
#232=EDGE_CURVE('',#242,#242,#243,.T.);
#233=EDGE_CURVE('',#244,#244,#245,.T.);
#234=VERTEX_POINT('',#246);
#235=CIRCLE('',#247,0.004);
#236=VERTEX_POINT('',#248);
#237=CIRCLE('',#249,0.00469615242270663);
#238=VERTEX_POINT('',#250);
#239=CIRCLE('',#251,0.005);
#240=VERTEX_POINT('',#252);
#241=CIRCLE('',#253,0.004);
#242=VERTEX_POINT('',#254);
#243=CIRCLE('',#255,0.0055);
#244=VERTEX_POINT('',#256);
#245=CIRCLE('',#257,0.0055);
#246=CARTESIAN_POINT('',(0.0,-0.004,0.0140472793432632));
#247=AXIS2_PLACEMENT_3D('',#258,#259,#260);
#248=CARTESIAN_POINT('',(0.00469615242270663,1.73472347597681E-018,0.015));
#249=AXIS2_PLACEMENT_3D('',#261,#262,#263);
#250=CARTESIAN_POINT('',(0.005,0.0,0.0));
#251=AXIS2_PLACEMENT_3D('',#264,#265,#266);
#252=CARTESIAN_POINT('',(0.0,0.004,0.001));
#253=AXIS2_PLACEMENT_3D('',#267,#268,#269);
#254=CARTESIAN_POINT('',(0.0055,0.0,0.0005));
#255=AXIS2_PLACEMENT_3D('',#270,#271,#272);
#256=CARTESIAN_POINT('',(0.0055,0.0,0.012));
#257=AXIS2_PLACEMENT_3D('',#273,#274,#275);
#258=CARTESIAN_POINT('',(0.0,8.60147784222802E-019,0.0140472793432632));
#259=DIRECTION('',(0.0,6.12323399573677E-017,1.0));
#260=DIRECTION('',(0.0,-1.0,6.12323399573677E-017));
#261=CARTESIAN_POINT('',(0.0,1.73472347597681E-018,0.015));
#262=DIRECTION('',(0.0,-6.12323399573677E-017,-1.0));
#263=DIRECTION('',(0.0,1.0,-6.12323399573677E-017));
#264=CARTESIAN_POINT('',(0.0,0.0,0.0));
#265=DIRECTION('',(0.0,-6.12323399573677E-017,-1.0));
#266=DIRECTION('',(0.0,1.0,-6.12323399573677E-017));
#267=CARTESIAN_POINT('',(0.0,6.12323399573677E-020,0.001));
#268=DIRECTION('',(0.0,-6.12323399573677E-017,-1.0));
#269=DIRECTION('',(0.0,1.0,-6.12323399573677E-017));
#270=CARTESIAN_POINT('',(0.0,0.0,0.0005));
#271=DIRECTION('',(0.0,-6.12323399573677E-017,-1.0));
#272=DIRECTION('',(0.0,1.0,-6.12323399573677E-017));
#273=CARTESIAN_POINT('',(0.0,0.0,0.012));
#274=DIRECTION('',(0.0,-6.12323399573677E-017,-1.0));
#275=DIRECTION('',(0.0,1.0,-6.12323399573677E-017));
ENDSEC;
END-ISO-10303-21;
