ISO-10303-21;
HEADER;
FILE_DESCRIPTION(('STEP AP203'),'1');
FILE_NAME('580-LM100120.stp','2016-12-28T11:12:08',(' '),(' '),'Spatial InterOp 3D',' ',' ');
FILE_SCHEMA(('CONFIG_CONTROL_DESIGN'));
ENDSEC;
DATA;
#1=DESIGN_CONTEXT('',#51,'design');
#2=APPLICATION_PROTOCOL_DEFINITION('INTERNATIONAL STANDARD','config_control_design',1994,#51);
#3=PRODUCT_CATEGORY_RELATIONSHIP('NONE','NONE',#52,#53);
#4=DATE_AND_TIME(#54,#55);
#5=DATE_TIME_ROLE('creation_date');
#6=DATE_TIME_ROLE('classification_date');
#7=PERSON_AND_ORGANIZATION_ROLE('creator');
#8=PERSON_AND_ORGANIZATION_ROLE('design_supplier');
#9=PERSON_AND_ORGANIZATION_ROLE('classification_officer');
#10=PERSON_AND_ORGANIZATION_ROLE('design_owner');
#11=APPROVAL_PERSON_ORGANIZATION(#56,#57,#58);
#12=APPROVAL_DATE_TIME(#4,#57);
#13=CC_DESIGN_APPROVAL(#57,(#59,#60,#61));
#14=CC_DESIGN_DATE_AND_TIME_ASSIGNMENT(#4,#5,(#61));
#15=CC_DESIGN_DATE_AND_TIME_ASSIGNMENT(#4,#6,(#59));
#16=CC_DESIGN_PERSON_AND_ORGANIZATION_ASSIGNMENT(#56,#10,(#62));
#17=CC_DESIGN_PERSON_AND_ORGANIZATION_ASSIGNMENT(#56,#7,(#61));
#18=CC_DESIGN_PERSON_AND_ORGANIZATION_ASSIGNMENT(#56,#7,(#60));
#19=CC_DESIGN_PERSON_AND_ORGANIZATION_ASSIGNMENT(#56,#8,(#60));
#20=CC_DESIGN_SECURITY_CLASSIFICATION(#59,(#60));
#21=CC_DESIGN_PERSON_AND_ORGANIZATION_ASSIGNMENT(#56,#9,(#59));
#22=SHAPE_DEFINITION_REPRESENTATION(#63,#64);
#23=DESIGN_CONTEXT('',#65,'design');
#24=APPLICATION_PROTOCOL_DEFINITION('INTERNATIONAL STANDARD','config_control_design',1994,#65);
#25=PRODUCT_CATEGORY_RELATIONSHIP('NONE','NONE',#66,#67);
#26=DATE_AND_TIME(#68,#69);
#27=DATE_TIME_ROLE('creation_date');
#28=DATE_TIME_ROLE('classification_date');
#29=PERSON_AND_ORGANIZATION_ROLE('creator');
#30=PERSON_AND_ORGANIZATION_ROLE('design_supplier');
#31=PERSON_AND_ORGANIZATION_ROLE('classification_officer');
#32=PERSON_AND_ORGANIZATION_ROLE('design_owner');
#33=APPROVAL_PERSON_ORGANIZATION(#70,#71,#72);
#34=APPROVAL_DATE_TIME(#26,#71);
#35=CC_DESIGN_APPROVAL(#71,(#73,#74,#75));
#36=CC_DESIGN_DATE_AND_TIME_ASSIGNMENT(#26,#27,(#75));
#37=CC_DESIGN_DATE_AND_TIME_ASSIGNMENT(#26,#28,(#73));
#38=CC_DESIGN_PERSON_AND_ORGANIZATION_ASSIGNMENT(#70,#32,(#76));
#39=CC_DESIGN_PERSON_AND_ORGANIZATION_ASSIGNMENT(#70,#29,(#75));
#40=CC_DESIGN_PERSON_AND_ORGANIZATION_ASSIGNMENT(#70,#29,(#74));
#41=CC_DESIGN_PERSON_AND_ORGANIZATION_ASSIGNMENT(#70,#30,(#74));
#42=CC_DESIGN_SECURITY_CLASSIFICATION(#73,(#74));
#43=CC_DESIGN_PERSON_AND_ORGANIZATION_ASSIGNMENT(#70,#31,(#73));
#44=CONTEXT_DEPENDENT_SHAPE_REPRESENTATION(#77,#78);
#45=SHAPE_DEFINITION_REPRESENTATION(#79,#80);
#46=SHAPE_REPRESENTATION_RELATIONSHIP('NONE','NONE',#80,#81);
#47= (GEOMETRIC_REPRESENTATION_CONTEXT(3)GLOBAL_UNCERTAINTY_ASSIGNED_CONTEXT((#84))GLOBAL_UNIT_ASSIGNED_CONTEXT((#86,#87,#88))REPRESENTATION_CONTEXT('NONE','WORKSPACE'));
#51=APPLICATION_CONTEXT('CONFIGURATION CONTROLLED 3D DESIGNS OF MECHANICAL PARTS AND ASSEMBLIES');
#52=PRODUCT_CATEGORY('part','NONE');
#53=PRODUCT_RELATED_PRODUCT_CATEGORY('detail',' ',(#62));
#54=CALENDAR_DATE(2016,28,11);
#55=LOCAL_TIME(12,12,8.0,#90);
#56=PERSON_AND_ORGANIZATION(#91,#92);
#57=APPROVAL(#93,'SOLID MODEL');
#58=APPROVAL_ROLE('APPROVED');
#59=SECURITY_CLASSIFICATION('','',#94);
#60=PRODUCT_DEFINITION_FORMATION_WITH_SPECIFIED_SOURCE(' ','NONE',#62,.NOT_KNOWN.);
#61=PRODUCT_DEFINITION('NONE','NONE',#60,#1);
#62=PRODUCT('','','PART--DESC',(#95));
#63=PRODUCT_DEFINITION_SHAPE('NONE','NONE',#61);
#64=SHAPE_REPRESENTATION('',(#96,#97),#98);
#65=APPLICATION_CONTEXT('CONFIGURATION CONTROLLED 3D DESIGNS OF MECHANICAL PARTS AND ASSEMBLIES');
#66=PRODUCT_CATEGORY('part','NONE');
#67=PRODUCT_RELATED_PRODUCT_CATEGORY('detail',' ',(#76));
#68=CALENDAR_DATE(2016,28,11);
#69=LOCAL_TIME(12,12,8.0,#99);
#70=PERSON_AND_ORGANIZATION(#100,#101);
#71=APPROVAL(#102,'SOLID MODEL');
#72=APPROVAL_ROLE('APPROVED');
#73=SECURITY_CLASSIFICATION('','',#103);
#74=PRODUCT_DEFINITION_FORMATION_WITH_SPECIFIED_SOURCE(' ','NONE',#76,.NOT_KNOWN.);
#75=PRODUCT_DEFINITION('580-LM100x120','580-LM100x120',#74,#23);
#76=PRODUCT('580-LM100x120','580-LM100x120','PART-580-LM100x120-DESC',(#104));
#77=(REPRESENTATION_RELATIONSHIP('','',#80,#64)REPRESENTATION_RELATIONSHIP_WITH_TRANSFORMATION(#107)SHAPE_REPRESENTATION_RELATIONSHIP());
#78=PRODUCT_DEFINITION_SHAPE('NAUO-PROD-DEF','NAUO-PROD-DEF',#109);
#79=PRODUCT_DEFINITION_SHAPE('NONE','NONE',#75);
#80=SHAPE_REPRESENTATION('580-LM100x120',(#96),#98);
#81=ADVANCED_BREP_SHAPE_REPRESENTATION('',(#110),#47);
#84=UNCERTAINTY_MEASURE_WITH_UNIT(LENGTH_MEASURE(1.0E-006),#86,'','');
#86= (CONVERSION_BASED_UNIT('METRE',#113)LENGTH_UNIT()NAMED_UNIT(#116));
#87= (NAMED_UNIT(#118)PLANE_ANGLE_UNIT()SI_UNIT($,.RADIAN.));
#88= (NAMED_UNIT(#118)SOLID_ANGLE_UNIT()SI_UNIT($,.STERADIAN.));
#90=COORDINATED_UNIVERSAL_TIME_OFFSET(1,0,.AHEAD.);
#91=PERSON('','UNSPECIFIED',$,$,$,$);
#92=ORGANIZATION('UNSPECIFIED','UNSPECIFIED','UNSPECIFIED');
#93=APPROVAL_STATUS('approved');
#94=SECURITY_CLASSIFICATION_LEVEL('unclassified');
#95=MECHANICAL_CONTEXT('',#51,'mechanical');
#96=AXIS2_PLACEMENT_3D('',#124,#125,#126);
#97=AXIS2_PLACEMENT_3D('',#127,#128,#129);
#98= (GEOMETRIC_REPRESENTATION_CONTEXT(3)GLOBAL_UNCERTAINTY_ASSIGNED_CONTEXT((#132))GLOBAL_UNIT_ASSIGNED_CONTEXT((#134,#135,#136))REPRESENTATION_CONTEXT('NONE','WORKSPACE'));
#99=COORDINATED_UNIVERSAL_TIME_OFFSET(1,0,.AHEAD.);
#100=PERSON('','UNSPECIFIED',$,$,$,$);
#101=ORGANIZATION('UNSPECIFIED','UNSPECIFIED','UNSPECIFIED');
#102=APPROVAL_STATUS('approved');
#103=SECURITY_CLASSIFICATION_LEVEL('unclassified');
#104=MECHANICAL_CONTEXT('',#65,'mechanical');
#107=ITEM_DEFINED_TRANSFORMATION('','',#96,#97);
#109=NEXT_ASSEMBLY_USAGE_OCCURRENCE('580-LM100x120','580-LM100x120','580-LM100x120',#61,#75,$);
#110=MANIFOLD_SOLID_BREP('',#138);
#113=LENGTH_MEASURE_WITH_UNIT(LENGTH_MEASURE(1.0),#139);
#116=DIMENSIONAL_EXPONENTS(1.0,0.0,0.0,0.0,0.0,0.0,0.0);
#118=DIMENSIONAL_EXPONENTS(0.0,0.0,0.0,0.0,0.0,0.0,0.0);
#124=CARTESIAN_POINT('',(0.0,0.0,0.0));
#125=DIRECTION('',(0.0,0.0,1.0));
#126=DIRECTION('',(1.0,0.0,0.0));
#127=CARTESIAN_POINT('',(0.0,0.0,0.0));
#128=DIRECTION('',(5.48707263966374E-016,-5.48707263966374E-016,1.0));
#129=DIRECTION('',(-1.60812264967663E-016,1.0,5.48707263966374E-016));
#132=UNCERTAINTY_MEASURE_WITH_UNIT(LENGTH_MEASURE(1.0E-006),#134,'','');
#134= (CONVERSION_BASED_UNIT('METRE',#142)LENGTH_UNIT()NAMED_UNIT(#145));
#135= (NAMED_UNIT(#147)PLANE_ANGLE_UNIT()SI_UNIT($,.RADIAN.));
#136= (NAMED_UNIT(#147)SOLID_ANGLE_UNIT()SI_UNIT($,.STERADIAN.));
#138=CLOSED_SHELL('',(#153,#154,#155,#156,#157,#158,#159,#160,#161,#162,#163,#164,#165,#166,#167));
#139= (NAMED_UNIT(#116)LENGTH_UNIT()SI_UNIT($,.METRE.));
#142=LENGTH_MEASURE_WITH_UNIT(LENGTH_MEASURE(1.0),#169);
#145=DIMENSIONAL_EXPONENTS(1.0,0.0,0.0,0.0,0.0,0.0,0.0);
#147=DIMENSIONAL_EXPONENTS(0.0,0.0,0.0,0.0,0.0,0.0,0.0);
#153=ADVANCED_FACE('',(#170),#171,.F.);
#154=ADVANCED_FACE('',(#172),#173,.T.);
#155=ADVANCED_FACE('',(#174),#175,.F.);
#156=ADVANCED_FACE('',(#176,#177,#178),#179,.F.);
#157=ADVANCED_FACE('',(#180,#181),#182,.F.);
#158=ADVANCED_FACE('',(#183,#184),#185,.F.);
#159=ADVANCED_FACE('',(#186,#187),#188,.T.);
#160=ADVANCED_FACE('',(#189,#190),#191,.T.);
#161=ADVANCED_FACE('',(#192,#193),#194,.T.);
#162=ADVANCED_FACE('',(#195,#196),#197,.T.);
#163=ADVANCED_FACE('',(#198,#199),#200,.T.);
#164=ADVANCED_FACE('',(#201),#202,.F.);
#165=ADVANCED_FACE('',(#203),#204,.F.);
#166=ADVANCED_FACE('',(#205),#206,.T.);
#167=ADVANCED_FACE('',(#207),#208,.F.);
#169= (NAMED_UNIT(#145)LENGTH_UNIT()SI_UNIT($,.METRE.));
#170=FACE_OUTER_BOUND('',#210,.T.);
#171=CYLINDRICAL_SURFACE('',#211,0.00225);
#172=FACE_OUTER_BOUND('',#212,.T.);
#173=PLANE('',#213);
#174=FACE_OUTER_BOUND('',#214,.T.);
#175=CYLINDRICAL_SURFACE('',#215,0.00225);
#176=FACE_OUTER_BOUND('',#216,.T.);
#177=FACE_OUTER_BOUND('',#217,.T.);
#178=FACE_BOUND('',#218,.T.);
#179=CYLINDRICAL_SURFACE('',#219,0.05);
#180=FACE_BOUND('',#220,.T.);
#181=FACE_OUTER_BOUND('',#221,.T.);
#182=CONICAL_SURFACE('',#222,0.052,0.785398163397448);
#183=FACE_OUTER_BOUND('',#223,.T.);
#184=FACE_BOUND('',#224,.T.);
#185=CONICAL_SURFACE('',#225,0.05,0.785398163397449);
#186=FACE_OUTER_BOUND('',#226,.T.);
#187=FACE_BOUND('',#227,.T.);
#188=PLANE('',#228);
#189=FACE_OUTER_BOUND('',#229,.T.);
#190=FACE_BOUND('',#230,.T.);
#191=CONICAL_SURFACE('',#231,0.108,0.78539816339745);
#192=FACE_OUTER_BOUND('',#232,.T.);
#193=FACE_OUTER_BOUND('',#233,.T.);
#194=CYLINDRICAL_SURFACE('',#234,0.11);
#195=FACE_BOUND('',#235,.T.);
#196=FACE_OUTER_BOUND('',#236,.T.);
#197=CONICAL_SURFACE('',#237,0.11,0.785398163397448);
#198=FACE_BOUND('',#238,.T.);
#199=FACE_OUTER_BOUND('',#239,.T.);
#200=PLANE('',#240);
#201=FACE_OUTER_BOUND('',#241,.T.);
#202=SPHERICAL_SURFACE('',#242,0.00225);
#203=FACE_OUTER_BOUND('',#243,.T.);
#204=SPHERICAL_SURFACE('',#244,0.00225);
#205=FACE_OUTER_BOUND('',#245,.T.);
#206=PLANE('',#246);
#207=FACE_OUTER_BOUND('',#247,.T.);
#208=CYLINDRICAL_SURFACE('',#248,0.00225);
#210=EDGE_LOOP('',(#249,#250,#251,#252));
#211=AXIS2_PLACEMENT_3D('',#253,#254,#255);
#212=EDGE_LOOP('',(#256,#257,#258,#259));
#213=AXIS2_PLACEMENT_3D('',#260,#261,#262);
#214=EDGE_LOOP('',(#263,#264,#265,#266));
#215=AXIS2_PLACEMENT_3D('',#267,#268,#269);
#216=EDGE_LOOP('',(#270));
#217=EDGE_LOOP('',(#271));
#218=EDGE_LOOP('',(#272,#273,#274,#275));
#219=AXIS2_PLACEMENT_3D('',#276,#277,#278);
#220=EDGE_LOOP('',(#279));
#221=EDGE_LOOP('',(#280));
#222=AXIS2_PLACEMENT_3D('',#281,#282,#283);
#223=EDGE_LOOP('',(#284));
#224=EDGE_LOOP('',(#285));
#225=AXIS2_PLACEMENT_3D('',#286,#287,#288);
#226=EDGE_LOOP('',(#289));
#227=EDGE_LOOP('',(#290));
#228=AXIS2_PLACEMENT_3D('',#291,#292,#293);
#229=EDGE_LOOP('',(#294));
#230=EDGE_LOOP('',(#295));
#231=AXIS2_PLACEMENT_3D('',#296,#297,#298);
#232=EDGE_LOOP('',(#299));
#233=EDGE_LOOP('',(#300));
#234=AXIS2_PLACEMENT_3D('',#301,#302,#303);
#235=EDGE_LOOP('',(#304));
#236=EDGE_LOOP('',(#305));
#237=AXIS2_PLACEMENT_3D('',#306,#307,#308);
#238=EDGE_LOOP('',(#309));
#239=EDGE_LOOP('',(#310));
#240=AXIS2_PLACEMENT_3D('',#311,#312,#313);
#241=EDGE_LOOP('',(#314,#315));
#242=AXIS2_PLACEMENT_3D('',#316,#317,#318);
#243=EDGE_LOOP('',(#319,#320));
#244=AXIS2_PLACEMENT_3D('',#321,#322,#323);
#245=EDGE_LOOP('',(#324,#325,#326,#327));
#246=AXIS2_PLACEMENT_3D('',#328,#329,#330);
#247=EDGE_LOOP('',(#331,#332,#333,#334));
#248=AXIS2_PLACEMENT_3D('',#335,#336,#337);
#249=ORIENTED_EDGE('',*,*,#338,.F.);
#250=ORIENTED_EDGE('',*,*,#339,.T.);
#251=ORIENTED_EDGE('',*,*,#340,.T.);
#252=ORIENTED_EDGE('',*,*,#341,.F.);
#253=CARTESIAN_POINT('',(8.32667268468867E-017,-0.0525,0.00725));
#254=DIRECTION('',(0.0,1.0,0.0));
#255=DIRECTION('',(0.0,0.0,1.0));
#256=ORIENTED_EDGE('',*,*,#342,.F.);
#257=ORIENTED_EDGE('',*,*,#343,.T.);
#258=ORIENTED_EDGE('',*,*,#338,.T.);
#259=ORIENTED_EDGE('',*,*,#344,.F.);
#260=CARTESIAN_POINT('',(-0.00224999999999993,-0.0525,0.11275));
#261=DIRECTION('',(1.0,0.0,1.23321574121574E-016));
#262=DIRECTION('',(-1.23321574121574E-016,0.0,1.0));
#263=ORIENTED_EDGE('',*,*,#345,.F.);
#264=ORIENTED_EDGE('',*,*,#346,.T.);
#265=ORIENTED_EDGE('',*,*,#342,.T.);
#266=ORIENTED_EDGE('',*,*,#347,.F.);
#267=CARTESIAN_POINT('',(7.67615138119737E-017,-0.0525,0.11275));
#268=DIRECTION('',(0.0,1.0,0.0));
#269=DIRECTION('',(0.0,0.0,1.0));
#270=ORIENTED_EDGE('',*,*,#348,.T.);
#271=ORIENTED_EDGE('',*,*,#349,.F.);
#272=ORIENTED_EDGE('',*,*,#350,.T.);
#273=ORIENTED_EDGE('',*,*,#347,.T.);
#274=ORIENTED_EDGE('',*,*,#344,.T.);
#275=ORIENTED_EDGE('',*,*,#341,.T.);
#276=CARTESIAN_POINT('',(0.0,0.0,-1.0842021724855E-019));
#277=DIRECTION('',(0.0,-6.12323399573677E-017,-1.0));
#278=DIRECTION('',(0.0,1.0,-6.12323399573677E-017));
#279=ORIENTED_EDGE('',*,*,#349,.T.);
#280=ORIENTED_EDGE('',*,*,#351,.F.);
#281=CARTESIAN_POINT('',(0.0,6.93889390390723E-018,0.12));
#282=DIRECTION('',(-0.0,6.12323399573677E-017,1.0));
#283=DIRECTION('',(0.0,-1.0,6.12323399573677E-017));
#284=ORIENTED_EDGE('',*,*,#352,.T.);
#285=ORIENTED_EDGE('',*,*,#348,.F.);
#286=CARTESIAN_POINT('',(0.0,0.0,0.002));
#287=DIRECTION('',(0.0,-6.12323399573677E-017,-1.0));
#288=DIRECTION('',(0.0,1.0,-6.12323399573677E-017));
#289=ORIENTED_EDGE('',*,*,#353,.T.);
#290=ORIENTED_EDGE('',*,*,#352,.F.);
#291=CARTESIAN_POINT('',(0.052,0.0,6.01732205729455E-018));
#292=DIRECTION('',(0.0,-6.12323399573677E-017,-1.0));
#293=DIRECTION('',(0.0,1.0,-6.12323399573677E-017));
#294=ORIENTED_EDGE('',*,*,#354,.T.);
#295=ORIENTED_EDGE('',*,*,#353,.F.);
#296=CARTESIAN_POINT('',(0.0,0.0,9.43255890062389E-018));
#297=DIRECTION('',(-0.0,6.12323399573677E-017,1.0));
#298=DIRECTION('',(0.0,-1.0,6.12323399573677E-017));
#299=ORIENTED_EDGE('',*,*,#355,.T.);
#300=ORIENTED_EDGE('',*,*,#354,.F.);
#301=CARTESIAN_POINT('',(0.0,0.0,-1.0842021724855E-019));
#302=DIRECTION('',(0.0,-6.12323399573677E-017,-1.0));
#303=DIRECTION('',(0.0,1.0,-6.12323399573677E-017));
#304=ORIENTED_EDGE('',*,*,#356,.T.);
#305=ORIENTED_EDGE('',*,*,#355,.F.);
#306=CARTESIAN_POINT('',(0.0,6.93889390390723E-018,0.118));
#307=DIRECTION('',(0.0,-6.12323399573677E-017,-1.0));
#308=DIRECTION('',(0.0,1.0,-6.12323399573677E-017));
#309=ORIENTED_EDGE('',*,*,#351,.T.);
#310=ORIENTED_EDGE('',*,*,#356,.F.);
#311=CARTESIAN_POINT('',(0.108,6.93889390390723E-018,0.12));
#312=DIRECTION('',(0.0,6.12323399573677E-017,1.0));
#313=DIRECTION('',(0.0,-1.0,6.12323399573677E-017));
#314=ORIENTED_EDGE('',*,*,#357,.F.);
#315=ORIENTED_EDGE('',*,*,#346,.F.);
#316=CARTESIAN_POINT('',(7.67615138119737E-017,-0.05025,0.11275));
#317=DIRECTION('',(0.0,-1.0,0.0));
#318=DIRECTION('',(0.0,0.0,-1.0));
#319=ORIENTED_EDGE('',*,*,#339,.F.);
#320=ORIENTED_EDGE('',*,*,#358,.T.);
#321=CARTESIAN_POINT('',(8.32667268468867E-017,-0.05025,0.00725));
#322=DIRECTION('',(0.0,-1.0,0.0));
#323=DIRECTION('',(0.0,0.0,-1.0));
#324=ORIENTED_EDGE('',*,*,#340,.F.);
#325=ORIENTED_EDGE('',*,*,#359,.T.);
#326=ORIENTED_EDGE('',*,*,#345,.T.);
#327=ORIENTED_EDGE('',*,*,#350,.F.);
#328=CARTESIAN_POINT('',(0.00225000000000008,-0.0525,0.00725));
#329=DIRECTION('',(-1.0,0.0,0.0));
#330=DIRECTION('',(0.0,1.0,0.0));
#331=ORIENTED_EDGE('',*,*,#343,.F.);
#332=ORIENTED_EDGE('',*,*,#357,.T.);
#333=ORIENTED_EDGE('',*,*,#359,.F.);
#334=ORIENTED_EDGE('',*,*,#358,.F.);
#335=CARTESIAN_POINT('',(7.02563007770607E-017,-0.05025,0.11275));
#336=DIRECTION('',(1.23321574121574E-016,0.0,-1.0));
#337=DIRECTION('',(-1.0,0.0,-1.23321574121574E-016));
#338=EDGE_CURVE('',#360,#361,#362,.T.);
#339=EDGE_CURVE('',#360,#363,#364,.F.);
#340=EDGE_CURVE('',#363,#365,#366,.T.);
#341=EDGE_CURVE('',#361,#365,#367,.T.);
#342=EDGE_CURVE('',#368,#369,#370,.T.);
#343=EDGE_CURVE('',#368,#360,#371,.T.);
#344=EDGE_CURVE('',#369,#361,#372,.T.);
#345=EDGE_CURVE('',#373,#374,#375,.T.);
#346=EDGE_CURVE('',#373,#368,#376,.F.);
#347=EDGE_CURVE('',#374,#369,#377,.T.);
#348=EDGE_CURVE('',#378,#378,#379,.T.);
#349=EDGE_CURVE('',#380,#380,#381,.T.);
#350=EDGE_CURVE('',#365,#374,#382,.F.);
#351=EDGE_CURVE('',#383,#383,#384,.T.);
#352=EDGE_CURVE('',#385,#385,#386,.T.);
#353=EDGE_CURVE('',#387,#387,#388,.T.);
#354=EDGE_CURVE('',#389,#389,#390,.T.);
#355=EDGE_CURVE('',#391,#391,#392,.T.);
#356=EDGE_CURVE('',#393,#393,#394,.T.);
#357=EDGE_CURVE('',#368,#373,#395,.T.);
#358=EDGE_CURVE('',#360,#363,#396,.T.);
#359=EDGE_CURVE('',#363,#373,#397,.T.);
#360=VERTEX_POINT('',#398);
#361=VERTEX_POINT('',#399);
#362=LINE('',#400,#401);
#363=VERTEX_POINT('',#402);
#364=CIRCLE('',#403,0.00225);
#365=VERTEX_POINT('',#404);
#366=LINE('',#405,#406);
#367=B_SPLINE_CURVE_WITH_KNOTS('',3,(#407,#408,#409,#410,#411,#412,#413,#414,#415,#416,#417,#418,#419,#420,#421,#422,#423,#424,#425,#426,#427,#428,#429,#430,#431,#432,#433,#434,#435,#436),.UNSPECIFIED.,.F.,.F.,(4,2,2,2,2,2,2,2,2,2,2,2,2,2,4),(8.67361737988404E-019,0.000439621776086822,0.000879243552173643,0.00131886532826046,0.00175848710434729,0.00263773065652093,0.00351697420869457,0.00395659598478139,0.00439621776086821,0.00483583953695502,0.00527546131304184,0.00571508308912866,0.00615470486521548,0.0065943266413023,0.00703394841738912),.UNSPECIFIED.);
#368=VERTEX_POINT('',#437);
#369=VERTEX_POINT('',#438);
#370=LINE('',#439,#440);
#371=LINE('',#441,#442);
#372=LINE('',#443,#444);
#373=VERTEX_POINT('',#445);
#374=VERTEX_POINT('',#446);
#375=LINE('',#447,#448);
#376=CIRCLE('',#449,0.00225);
#377=B_SPLINE_CURVE_WITH_KNOTS('',3,(#450,#451,#452,#453,#454,#455,#456,#457,#458,#459,#460,#461,#462,#463,#464,#465,#466,#467,#468,#469,#470,#471,#472,#473,#474,#475,#476,#477,#478,#479),.UNSPECIFIED.,.F.,.F.,(4,2,2,2,2,2,2,2,2,2,2,2,2,2,4),(0.0,0.000439621776086813,0.000879243552173626,0.00131886532826044,0.00175848710434725,0.00263773065652091,0.00351697420869456,0.00395659598478139,0.00439621776086822,0.00483583953695505,0.00527546131304187,0.0057150830891287,0.00615470486521553,0.00659432664130235,0.00703394841738918),.UNSPECIFIED.);
#378=VERTEX_POINT('',#480);
#379=CIRCLE('',#481,0.05);
#380=VERTEX_POINT('',#482);
#381=CIRCLE('',#483,0.05);
#382=LINE('',#484,#485);
#383=VERTEX_POINT('',#486);
#384=CIRCLE('',#487,0.052);
#385=VERTEX_POINT('',#488);
#386=CIRCLE('',#489,0.052);
#387=VERTEX_POINT('',#490);
#388=CIRCLE('',#491,0.108);
#389=VERTEX_POINT('',#492);
#390=CIRCLE('',#493,0.11);
#391=VERTEX_POINT('',#494);
#392=CIRCLE('',#495,0.11);
#393=VERTEX_POINT('',#496);
#394=CIRCLE('',#497,0.108);
#395=CIRCLE('',#498,0.00225);
#396=CIRCLE('',#499,0.00225);
#397=LINE('',#500,#501);
#398=CARTESIAN_POINT('',(-0.00224999999999991,-0.05025,0.00725));
#399=CARTESIAN_POINT('',(-0.00224999999999991,-0.0499493493451116,0.00725));
#400=CARTESIAN_POINT('',(-0.00224999999999991,-0.0525,0.00725));
#401=VECTOR('',#502,1.0);
#402=CARTESIAN_POINT('',(0.00225000000000008,-0.05025,0.00725));
#403=AXIS2_PLACEMENT_3D('',#503,#504,#505);
#404=CARTESIAN_POINT('',(0.00225000000000008,-0.0499493493451116,0.00725));
#405=CARTESIAN_POINT('',(0.00225000000000008,-0.0525,0.00725));
#406=VECTOR('',#506,1.0);
#407=CARTESIAN_POINT('',(-0.00224999999999992,-0.0499493493451116,0.00725));
#408=CARTESIAN_POINT('',(-0.00224999999999992,-0.0499493493451116,0.00710134806972101));
#409=CARTESIAN_POINT('',(-0.00223541323410006,-0.0499500124705492,0.00695518373831522));
#410=CARTESIAN_POINT('',(-0.00217826285576736,-0.0499525373636454,0.0066676256474331));
#411=CARTESIAN_POINT('',(-0.00213500481185138,-0.0499544287103127,0.00652474170290275));
#412=CARTESIAN_POINT('',(-0.00202208356781166,-0.0499591270076362,0.00625229102994759));
#413=CARTESIAN_POINT('',(-0.00195298496011638,-0.0499619107072236,0.00612307339515896));
#414=CARTESIAN_POINT('',(-0.0017897375990076,-0.0499680248868987,0.0058785215445229));
#415=CARTESIAN_POINT('',(-0.00169472950248831,-0.049971378513897,0.00576274526513512));
#416=CARTESIAN_POINT('',(-0.00138342615386641,-0.049981288966371,0.00545145308409029));
#417=CARTESIAN_POINT('',(-0.00113247620754681,-0.0499879064790416,0.0052838184564129));
#418=CARTESIAN_POINT('',(-0.000591090045870586,-0.049997239014527,0.00505934147328368));
#419=CARTESIAN_POINT('',(-0.000295016702770542,-0.0499999909630525,0.00500020082110259));
#420=CARTESIAN_POINT('',(0.000145204957719829,-0.0500000044831029,0.00499990037546693));
#421=CARTESIAN_POINT('',(0.000294255137314226,-0.0499993423327905,0.00501447898799828));
#422=CARTESIAN_POINT('',(0.000582825376998916,-0.0499968112420916,0.005071823041885));
#423=CARTESIAN_POINT('',(0.000723083347110646,-0.049994956835321,0.00511426322123856));
#424=CARTESIAN_POINT('',(0.000995502224314806,-0.0499902743922642,0.00522683504468683));
#425=CARTESIAN_POINT('',(0.00112726611610193,-0.0499874398756293,0.00529724305008947));
#426=CARTESIAN_POINT('',(0.00137110976976463,-0.0499813458423783,0.00546001491593045));
#427=CARTESIAN_POINT('',(0.00148476787463451,-0.0499780603438401,0.0055529399254857));
#428=CARTESIAN_POINT('',(0.00169491259357877,-0.0499713750328546,0.00576278117340277));
#429=CARTESIAN_POINT('',(0.00178820629007782,-0.0499680795439828,0.00587657585925096));
#430=CARTESIAN_POINT('',(0.0019512491501824,-0.0499619783615859,0.00612013170671153));
#431=CARTESIAN_POINT('',(0.00202172655080163,-0.0499591415447682,0.00625155475578999));
#432=CARTESIAN_POINT('',(0.00213480358915262,-0.0499544373982146,0.00652413170089681));
#433=CARTESIAN_POINT('',(0.00217741190384545,-0.0499525746167594,0.00666435626154506));
#434=CARTESIAN_POINT('',(0.00223509445559687,-0.0499500268890467,0.00695258789204287));
#435=CARTESIAN_POINT('',(0.00225000000000009,-0.0499493493451116,0.00710134815168106));
#436=CARTESIAN_POINT('',(0.00225000000000008,-0.0499493493451116,0.00725));
#437=CARTESIAN_POINT('',(-0.00224999999999993,-0.05025,0.11275));
#438=CARTESIAN_POINT('',(-0.00224999999999993,-0.0499493493451116,0.11275));
#439=CARTESIAN_POINT('',(-0.00224999999999993,-0.0525,0.11275));
#440=VECTOR('',#507,1.0);
#441=CARTESIAN_POINT('',(-0.00224999999999993,-0.05025,0.11275));
#442=VECTOR('',#508,1.0);
#443=CARTESIAN_POINT('',(-0.00224999999999991,-0.0499493493451116,2.67262178072711E-018));
#444=VECTOR('',#509,1.0);
#445=CARTESIAN_POINT('',(0.00225000000000008,-0.05025,0.11275));
#446=CARTESIAN_POINT('',(0.00225000000000008,-0.0499493493451116,0.11275));
#447=CARTESIAN_POINT('',(0.00225000000000008,-0.0525,0.11275));
#448=VECTOR('',#510,1.0);
#449=AXIS2_PLACEMENT_3D('',#511,#512,#513);
#450=CARTESIAN_POINT('',(0.00225000000000008,-0.0499493493451116,0.11275));
#451=CARTESIAN_POINT('',(0.00225000000000009,-0.0499493493451116,0.112898651930279));
#452=CARTESIAN_POINT('',(0.00223541323410022,-0.0499500124705492,0.113044816261685));
#453=CARTESIAN_POINT('',(0.00217826285576752,-0.0499525373636454,0.113332374352567));
#454=CARTESIAN_POINT('',(0.00213500481185154,-0.0499544287103127,0.113475258297097));
#455=CARTESIAN_POINT('',(0.00202208356781182,-0.0499591270076362,0.113747708970052));
#456=CARTESIAN_POINT('',(0.00195298496011653,-0.0499619107072236,0.113876926604841));
#457=CARTESIAN_POINT('',(0.00178973759900775,-0.0499680248868987,0.114121478455477));
#458=CARTESIAN_POINT('',(0.00169472950248848,-0.049971378513897,0.114237254734865));
#459=CARTESIAN_POINT('',(0.00138342615386657,-0.049981288966371,0.11454854691591));
#460=CARTESIAN_POINT('',(0.00113247620754698,-0.0499879064790416,0.114716181543587));
#461=CARTESIAN_POINT('',(0.000591090045870747,-0.049997239014527,0.114940658526716));
#462=CARTESIAN_POINT('',(0.000295016702770707,-0.0499999909630525,0.114999799178897));
#463=CARTESIAN_POINT('',(-0.000145204957719674,-0.0500000044831029,0.115000099624533));
#464=CARTESIAN_POINT('',(-0.000294255137314054,-0.0499993423327905,0.114985521012002));
#465=CARTESIAN_POINT('',(-0.00058282537699875,-0.0499968112420916,0.114928176958115));
#466=CARTESIAN_POINT('',(-0.00072308334711048,-0.049994956835321,0.114885736778761));
#467=CARTESIAN_POINT('',(-0.000995502224314647,-0.0499902743922642,0.114773164955313));
#468=CARTESIAN_POINT('',(-0.00112726611610177,-0.0499874398756293,0.114702756949911));
#469=CARTESIAN_POINT('',(-0.00137110976976447,-0.0499813458423783,0.11453998508407));
#470=CARTESIAN_POINT('',(-0.00148476787463435,-0.0499780603438401,0.114447060074514));
#471=CARTESIAN_POINT('',(-0.00169491259357862,-0.0499713750328545,0.114237218826597));
#472=CARTESIAN_POINT('',(-0.00178820629007766,-0.0499680795439828,0.114123424140749));
#473=CARTESIAN_POINT('',(-0.00195124915018224,-0.0499619783615859,0.113879868293289));
#474=CARTESIAN_POINT('',(-0.00202172655080147,-0.0499591415447682,0.11374844524421));
#475=CARTESIAN_POINT('',(-0.00213480358915246,-0.0499544373982146,0.113475868299103));
#476=CARTESIAN_POINT('',(-0.0021774119038453,-0.0499525746167594,0.113335643738455));
#477=CARTESIAN_POINT('',(-0.00223509445559671,-0.0499500268890467,0.113047412107957));
#478=CARTESIAN_POINT('',(-0.00224999999999993,-0.0499493493451116,0.112898651848319));
#479=CARTESIAN_POINT('',(-0.00224999999999993,-0.0499493493451116,0.11275));
#480=CARTESIAN_POINT('',(0.0,0.05,0.002));
#481=AXIS2_PLACEMENT_3D('',#514,#515,#516);
#482=CARTESIAN_POINT('',(0.0,0.05,0.118));
#483=AXIS2_PLACEMENT_3D('',#517,#518,#519);
#484=CARTESIAN_POINT('',(0.00225000000000008,-0.0499493493451116,2.95009532250064E-018));
#485=VECTOR('',#520,1.0);
#486=CARTESIAN_POINT('',(0.0,0.052,0.12));
#487=AXIS2_PLACEMENT_3D('',#521,#522,#523);
#488=CARTESIAN_POINT('',(0.0,0.052,-5.81996463817907E-019));
#489=AXIS2_PLACEMENT_3D('',#524,#525,#526);
#490=CARTESIAN_POINT('',(0.0,0.108,2.81946618522818E-018));
#491=AXIS2_PLACEMENT_3D('',#527,#528,#529);
#492=CARTESIAN_POINT('',(0.0,0.11,0.002));
#493=AXIS2_PLACEMENT_3D('',#530,#531,#532);
#494=CARTESIAN_POINT('',(0.0,0.11,0.118));
#495=AXIS2_PLACEMENT_3D('',#533,#534,#535);
#496=CARTESIAN_POINT('',(0.0,0.108,0.12));
#497=AXIS2_PLACEMENT_3D('',#536,#537,#538);
#498=AXIS2_PLACEMENT_3D('',#539,#540,#541);
#499=AXIS2_PLACEMENT_3D('',#542,#543,#544);
#500=CARTESIAN_POINT('',(0.00225000000000008,-0.05025,0.00725));
#501=VECTOR('',#545,1.0);
#502=DIRECTION('',(0.0,1.0,0.0));
#503=CARTESIAN_POINT('',(8.32667268468867E-017,-0.05025,0.00725));
#504=DIRECTION('',(0.0,1.0,0.0));
#505=DIRECTION('',(0.0,0.0,1.0));
#506=DIRECTION('',(0.0,1.0,0.0));
#507=DIRECTION('',(0.0,1.0,0.0));
#508=DIRECTION('',(1.23321574121574E-016,0.0,-1.0));
#509=DIRECTION('',(0.0,-6.12323399573677E-017,-1.0));
#510=DIRECTION('',(0.0,1.0,0.0));
#511=CARTESIAN_POINT('',(7.67615138119737E-017,-0.05025,0.11275));
#512=DIRECTION('',(0.0,1.0,0.0));
#513=DIRECTION('',(0.0,0.0,1.0));
#514=CARTESIAN_POINT('',(0.0,0.0,0.002));
#515=DIRECTION('',(0.0,-6.12323399573677E-017,-1.0));
#516=DIRECTION('',(0.0,1.0,-6.12323399573677E-017));
#517=CARTESIAN_POINT('',(0.0,6.93889390390723E-018,0.118));
#518=DIRECTION('',(0.0,-6.12323399573677E-017,-1.0));
#519=DIRECTION('',(0.0,1.0,-6.12323399573677E-017));
#520=DIRECTION('',(0.0,-6.12323399573677E-017,-1.0));
#521=CARTESIAN_POINT('',(0.0,6.93889390390723E-018,0.12));
#522=DIRECTION('',(0.0,-6.12323399573677E-017,-1.0));
#523=DIRECTION('',(0.0,1.0,-6.12323399573677E-017));
#524=CARTESIAN_POINT('',(0.0,0.0,2.60208521396521E-018));
#525=DIRECTION('',(0.0,-6.12323399573677E-017,-1.0));
#526=DIRECTION('',(0.0,1.0,-6.12323399573677E-017));
#527=CARTESIAN_POINT('',(0.0,0.0,9.43255890062389E-018));
#528=DIRECTION('',(0.0,-6.12323399573677E-017,-1.0));
#529=DIRECTION('',(0.0,1.0,-6.12323399573677E-017));
#530=CARTESIAN_POINT('',(0.0,0.0,0.002));
#531=DIRECTION('',(0.0,-6.12323399573677E-017,-1.0));
#532=DIRECTION('',(0.0,1.0,-6.12323399573677E-017));
#533=CARTESIAN_POINT('',(0.0,6.93889390390723E-018,0.118));
#534=DIRECTION('',(0.0,-6.12323399573677E-017,-1.0));
#535=DIRECTION('',(0.0,1.0,-6.12323399573677E-017));
#536=CARTESIAN_POINT('',(0.0,6.93889390390723E-018,0.12));
#537=DIRECTION('',(0.0,-6.12323399573677E-017,-1.0));
#538=DIRECTION('',(0.0,1.0,-6.12323399573677E-017));
#539=CARTESIAN_POINT('',(6.98226199080665E-017,-0.05025,0.11275));
#540=DIRECTION('',(-1.2335811384724E-014,-3.80430606298713E-029,1.0));
#541=DIRECTION('',(1.0,0.0,1.2335811384724E-014));
#542=CARTESIAN_POINT('',(8.32667268468867E-017,-0.05025,0.00725));
#543=DIRECTION('',(0.0,3.70074341541718E-014,1.0));
#544=DIRECTION('',(0.0,-1.0,3.70074341541719E-014));
#545=DIRECTION('',(0.0,0.0,1.0));
ENDSEC;
END-ISO-10303-21;
